Make it end (Live)

BAND: Lacrimosa
ALBUM: Lacrimosa Live (Original from "Stille" 1997)
MUSICIANS: Tilo Wolff, Anne Nurmi, Jay P, Sascha Gerbig, AC, J Kustner
TRANSCRIBED BY: Guillermo Gerling (lgerling@ironmaiden.com)

^ - hammer on, pull off
b - bend string up
r - release bend
/ - slide up
\ - slide down
~ - vibrato
T - tap
x - struck string
. - play the note and then mute it
< - raising volume
PM - palm mute
AH - Artificial Harmonic

Down-D Tunning
INTRO:
e|---------------------------------------------|
B|---------------------------------------------|
G|---------------------------------------------|
D|-------------------------------AH------AH----|X4
A|--0.---0.---0.-0.---0.---0.----6~------5~----|
D|--0.---0.---0.-0.---0.---0.-6~----6-5~----5--|
PM .. .. .. .. ..

VERSE1:
|-----------------------------------------------------|
|-----------------------------------------------------|
|-----------------------------------------------------|
|-----------------------------2-------5---------------|X2
|-----------------------------2-------5------5--------|
|--0.---0000.-00.---00000.-0.-2-------5------5-3-2-0--|
PM ..... ... ...... .. .....

PRECHORUS:
|-----------------------------------------------|
|-----------------------------------------------|
|--2---------2-------------------7--------------|
|--2---------2---------2---------7--------------|X2
|--0---------0---------2---------5--------------|
|----------------------2---------0-----3-5-3-2--|
PM.....

CHORUS: 
|GUITAR1:
|-----------------------------------------------------------------------|
|-----------------------------------------------------------------------|
|---------------------/12.-12/10-7-----------------------/12.-12/10-7---|
|-7-7-7-7-7-7-7-7-7-7----------------3-3-3-3-3-3-3-3-7-7--------------0-|--|
|-5-5-5-5-5-5-5-5-7-7-/10.-10/8--5-0-3-3-3-3-3-3-3-3-7-7-/10.-10/8--5-0-| |
|-0---------------7-7--------------0-3-3-3-3-3-3-3-3-7-7----------------| |
|GUITAR2: |X2
|-----------------------------------------------------------------------| |
|-----------------------------------------------------------------------| |
|-----------------------------------------------------------------------|--|
|-7-7-7-7-7-7-7-7-7-7-7-7-7-7-7-7-3-3-3-3-3-3-3-3-7-7-7-7-7-7-7-7-------|
|-5-5-5-5-5-5-5-5-7-7-7-7-7-7-7-7-3-3-3-3-3-3-3-3-7-7-7-7-7-7-7-7-------|
|-0---------------7-7-7-7-7-7-7-7-3-3-3-3-3-3-3-3-7-7-7-7-7-7-7-7-------|

(here guitars match)
|GUITAR1:
|-----------------------------------------|
|-----------------------------------------|
|-14-12-14-12-14--12---14-12-14b15r14-12--|X2
|-----------------------------------------|-----|
|-----------------------------------------| |
|-----------------------------------------| |
|GUITAR2: |X2
|-13-12-13-12-13--12---13-12-13b15r13-12--| |
|-----------------------------------------| |
|-----------------------------------------|-----|
|-----------------------------------------|X2
|-----------------------------------------|
|-----------------------------------------|

INTERLUDE:
-Only keyboards and bass: D-D-A-A
-Only Keyboards with voice: A-Ab-E-E X2
-Then guitars:
|----------------------------------------------------|
|----------------------------------------------------|
|----------------------------------------------------|
|--------------------------2--------2-------------2--|
|--------------------------2--------2-------------2--|
|--/7~-----10--9--7--6~----2----2-2-2---2-3-2-3-2-2--|
PM. .........
|----------------------------------|
|----------------------------------|
|----------------------------------|
|----------------------------------|
|------------------AH--------------|
|--2-3-2-5-2--/10--9--7--2-2-2-2---|
......... .......

|------------------------------|
|------------------------------|
|------------------------------|
|------------------------------|
|--2.---2.---2.-2.---2.---2.---|
|--2.---2.---2.-2.---2.---2.---|
PM .. ..... .. ..

|-----------------------------------------------------------------|
|-----------------------------------------------------------------|
|-----------------------------------------------------------------|
|-----7-----7---7-----7-----7---7-----2-----2---2-----6-----6---6-|----|
|-----7-----7---7-----7-----7---7-----2-----2---2-----6-----6---6-| |
|-77777-77777-777-77777-77777-777-22222-22222-222-66666-66666-666-| |
PM.. .... .. .... .... .. .... .... .. .... .... .. |X2
|-----------------------------------------------------------------| |
|-----------------------------------------------------------------| |
|-----------------------------------------------------------------|----|
|-----9-----9---9-----2-----2---2-----7-----7---7-----7-----7---7-|
|-----9-----9---9-----2-----2---2-----7-----7---7-----7-----7---7-|
|-99999-99999-999-22222-22222-222-77777-77777-777-77777-77777-777-|
.... .... .. .... .... .. .... .... .. .... .... ..

|----------------------------------------------------------------------------|
|----------------------------------------------------------------------------|
|----------------------------------------------------------------------------|
|--------------------------------6---------6-----6-----6---6-----------------|
|--------------------------------6---------6-----6-----6---6-----------------|
|--/9------9~~~----8~----/13-----6---------6-6-6-6-6-6-6-6-6-6-6-6-6-6-6-6-6-|
PM. ... . ...............

OUTRO: chorus' lyrics are repeated with the following 4 chord patterns (but 
diferent rhythms), ending in screams, noise and distorsion
I II III
|--------------------| |--------------------| |----------------------|
|--------------------| -> |--------------------| -> |----------------------| ->
|--------------------| |--------------------| |----------------------|
|--4-----------------|X4 |--7-----------------|X2 |--10------------------|X2
|--2----4----0----4--| |--5----7----3----7--| |--8----10----6----10--|
|-------4----0----4--| |-------7----3----7--| |-------10----6----10--|

IV
|--------------------| |--------------------| |--------------------|
|--------------------| -> |--------------------| -> |--------------------|
|--------------------| |--------------------| |--------------------|
|--------------------|X2 |--4-----------------|X4 |--7-----------------|
|--6----1----9----1--| |--2----4----0----4--| |--5----7----3----7--|
|--6----1----9----1--| |-------4----0----4--| |-------7----3----7--|
 noises and mess

Другие новости по теме: