Ich bin der brennende Komet (live)

BAND: Lacrimosa
ALBUM: Lacrimosa Live (Original from "Stolzes Herz" 1996 EP)
MUSICIANS: Tilo Wolff, Anne Nurmi, Jay P, Sascha Gerbig, AC, J Kustner
TRANSCRIBED BY: Guillermo Gerling (lgerling@ironmaiden.com)

^ - hammer on, pull off Great song. I tabbed some Keyboard
b - bend string up parts because they are really useful
r - release bend to catch the timing and the song as
/ - slide up a whole.
\ - slide down Some parts that are repeated throughout
~ - vibrato the song are marked with FIG_, so
t - tap (with strumming hand) some parts have the number of the
x - struck string figure and the times it will be
. - play the note and then mute it played.
PM - palm mute Something else: almost all rhythms
AH - Artificial Harmonic change constantly, so hear the song
several times and catch the correct
one, this is only a guide.

INTRO:

Keyboards:
e|---------------------------------------------------------------------|
B|---------------------------------------------------------------------|
G|-2-2-2-2-2-2-2-2-4-2-2-2-2-2-2-2-2-----------------------------------|
D|-----------------------------------3-3-3-3-3-3-3-3-2-2-2-2--2--------|
A|--------------------------------------------------------------5-3-2--|
E|---------------------------------------------------------------------|
A F G E
|-----------------------------------------------------------------|
|-----------------------------------------------------------------|
|-----------------------------------------------------------------|
|-----------------------------------------------------------------|X2
|--0.--0.--0-2-0--------------------------------------------------|
|----------------3-1.--1.--1-3-1-0-3.--3.--3-5-3-1-0.--0.--4.--4.-|

Enter drums and bass: A F G E X1. Then:

Guitar:
|-------------|-------------------------------|-------------------------------|
|-------------|-------------------------------|-------------------------------|
|-------------|-------------------------------|-------------------------------|
|-------------|--2----------------------------|--2----------------------------|
|-------------|--0---3---5---2-2-2-2-2-2-2-2--|--0---3---5---2-2-2-2-2-2-2-2--|
|-12///-12///-|------1---3---0-0-0-0-0-0-0-0--|------1---3---0-0-0-0-0-0-0-0--|
PM............. PM.............

|----------------------------------------------------------|
|----------------------------------------------------------|FIG1
|----------------------------------------------------------|
|--2-2-----2-2----------------------------2-3-2------------|
|--0-0-0-0-0-0-----3---3--3---5-5-----5---------5-3-2-3----|
|--------------1-1-1-1-1--1-0-3-3-3-3-3-0------------------|
PM. ... . . ... ...............

VERSE1:
|--------------------------------------------|
|--------------------------------------------|
|--------------------------------------------|
|-2---------------------------2-3-2----------|
|-0-------3-------5-------5---------5-3-2-3--|
|---------1-------3---3-3-3-0----------------|
PM. ...............
-FIG1 X1

BRIDGE:

|-----------------------------------------|
|-----------------------------------------|
|---------------------------0------2------|
|--2------------------------0------0------|X2
|--0------2------2-2-2------2------0------|
|---------0------0-0-0------3-------------|
PM.

CHORUS:

|-----------------------------------------------------------|
|-----------------------------------------------------------|
|-----------------------------------------------------------|
|-2--2------2--2-2-2------2--2------------------------------|----|
|-0--0--0-0-0--0-0-0--0-0-0--0-5--5------5--5-5-5------5--5-| |
|------------------------------3--3--3-3-3--3-3-3--3-3-3--3-| |FIG2
PM. ... ... ... |
|X2
|---------------------------------------------------------| |
|---------------------------------------------------------| |
|---------------------------------------------------------|------|
|------------------------------2-2------2--2-2-2------2---|
|-9--9-------9--9--2---2----2--0-0--0-0-0--0-0-0--0-0-0---|
|-7--7--7-7--7--7--0---0-0--0-----------------------------|
... . ... ...

THEN: FIG1 X2

FIRST SOLO:
|Guitar1:
|-------------------------------------------------------------------|
|-------------------------------------------------------------------|
|-------------------------------------------------------------------|
|-------------------------------------------------------------------|X2
|-0000000000000000--------------------------------------------------|
|-----------------111111111111111133333333333333330000000000000000--|
| PM..............................................................
|
|Guitar2:
|-12---12-----------12---12-----------12---12-----------12---12---12b13r12---|
|----15----15-13-15----15----15-13-15----15----13-15-13----15-------------15-|
|----------------------------------------------------------------------------|
|----------------------------------------------------------------------------|
|----------------------------------------------------------------------------|
|----------------------------------------------------------------------------|
|
|-12---12-----------12---12-----------12---12-----------12---12--12b13r12--12/-|
|----15----15-13-15----15----15-13-15----15----13-15-13----15------------15----|
|------------------------------------------------------------------------------|
|------------------------------------------------------------------------------|
|------------------------------------------------------------------------------|
|------------------------------------------------------------------------------|

VERSE2:
-Only keyboards: A F G E X2
-FIG1 X4
-Then:
|----------------------------------------------------------------------|
|----------------------------------------------------------------------|
|----------------------------------------------------------------------|
|-2222222222222222--------------------------------------------------2--|
|-0000000000000000333333333333333355555555555555552222222222222222--0--|
|-----------------111111111111111133333333333333330000000000000000-----|
PM..............................................................

INTERLUDE:
|----------------------------------------------------------------------|
|----------------------------------------------------------------------|
|----------------------------------------------------------------------|
|--/7~---7-7-9^7-7-7-9-10--6~---6-6-7^6-6-6-7-9--5~---5-5-7^5-5-5-7-9--|
|----------------------------------------------------------------------|
|----------------------------------------------------------------------|
PM. PM. PM. PM. PM. PM.

|------------------------------------------------------------------------------|
|----------------------/10~---10-10-12^10-10-10-12-13--9~---9-9-10^9-9-9-10-12-|
|------------------------------------------------------------------------------|
|-4~---4-4-5^4-4-4-5-7---------------------------------------------------------|
|------------------------------------------------------------------------------|
|------------------------------------------------------------------------------|
PM. PM. PM... PM... PM.. PM..

|---------------------------------------------------|
|-8~---8-8-10^8-8-8-10-12--7~---7-7-8^7-7-7-8-10/---|
|---------------------------------------------------|
|---------------------------------------------------|
|---------------------------------------------------|
|---------------------------------------------------|
PM.. PM.. PM. PM.

CHORUS: FIG2 X2

THEN:
-Keyboards: A F G F X2 as intro
|-------------|-----------------------------------------|
|-------------|-----------------------------------------|
|-------------|-----------------------------------------|
|-------------|--2--------------------------------------|
|-------------|--0------3------5-------2-2-2-2-2-2-2-2--|
|-12///-12///-|---------1------3-------0-0-0-0-0-0-0-0--|
PM.............
-FIG1 X1

2nd SOLO:
|Guitar1: FIG1 X4
|Guitar2:
|-----------------------------------------------------|
|-----------------------------------------------------|
|----------------------------------9---------------9--|
|--/10~------12^14^12-10-9----/12------12-10-10^12----|
|-----------------------------------------------------|
|-----------------------------------------------------|
PM...
|---------------------------------------------------|
|-10~-----13-12-10-12--13----12---------------------|
|--------------------------------14-12---10-9/--5~--|
|---------------------------------------------------|
|---------------------------------------------------|
|---------------------------------------------------|

|----------------------------------------------------------------------|
|-/13~------17-15.--17-15---17-15---13-12-13-15-13----17--15-13--15-17-|
|----------------------------------------------------------------------|
|----------------------------------------------------------------------|
|----------------------------------------------------------------------|
|----------------------------------------------------------------------|

|----------------------------------------------------------------------|
|-15-13-12-13-15---17-17.--17-17.--17-17.--17-17-17-17-17-17b18r17-15--|
|----------------------------------------------------------------------|
|----------------------------------------------------------------------|
|----------------------------------------------------------------------|
|----------------------------------------------------------------------|

Here guitars match:
|Guitar2:
|------------------------| |--------------------------|
|--17---15-17---15-13-15-| |-17---15-17--17b18r17-15--|
|------------------------| |--------------------------|
|------------------------|X3-->|--------------------------|----|
|------------------------| |--------------------------| |
|------------------------| |--------------------------| |
|Guitar1: |X2
|------------------------| |--------------------------| |
|--13---12-13---12-10-12-| |-13---12-13--13b15r13-12--| |
|------------------------| |--------------------------|----|
|------------------------|X3-->|--------------------------|
|------------------------| |--------------------------|
|------------------------| |--------------------------|

3rd SOLO:
|Guitar2: FIG1 X2
|Guitar1:
|--15b17r15--15b17r15--15b17r15b17--12-------------------------------------|
|----------------------------------------13------------/15-15-17-15-13-15--|
|-------------------------------------------14-12-14-----------------------|
|--------------------------------------------------------------------------|
|--------------------------------------------------------------------------|
|--------------------------------------------------------------------------|

|-------------------------20b22r20-20b22r20-20b22r20-20-17-|
|-----------13-15-15/22------------------------------------|
|-121212-14------------------------------------------------|
|----------------------------------------------------------|
|----------------------------------------------------------|
|----------------------------------------------------------|

|-19171717-20171717-22171717-20171717-19171717-20171717-22171717-20^17-|
|----------------------------------------------------------------------|
|----------------------------------------------------------------------|
|----------------------------------------------------------------------|
|----------------------------------------------------------------------|
|----------------------------------------------------------------------|

|-20^17-19^17-17^16-17^16-16/--|
|------------------------------|
|------------------------------|
|------------------------------|
|------------------------------|
|------------------------------|

Her guitars match:
|Guitar2
|---------------------------| |--------------------------|
|17--171717-15-17--15-13-15-| |-17-171717-15-17b18r17-15-|
|---------------------------| |--------------------------|
|---------------------------|X3-->|--------------------------|----|
|---------------------------| |--------------------------| |
|---------------------------| |--------------------------| |
|Guitar1 |X2
|---------------------------| |--------------------------| |
|13--131313-12-13--12-10-12-| |-13-131313-12-13b15r13-12-| |
|---------------------------| |--------------------------|----|
|---------------------------|X3-->|--------------------------|
|---------------------------| |--------------------------|
|---------------------------| |--------------------------|


THEN:
-Guitar2 continues playing the solo above and fades out
-Guitar1 plays this:
|----------------------------------------------------------------------|
|----------------------------------------------------------------------|
|----------------------------------------------------------------------|
|--/7~---7-7-9^7-7-7-9-10--6~---6-6-7^6-6-6-7-9--5~---5-5-7^5-5-5-7-9--|
|----------------------------------------------------------------------|
|----------------------------------------------------------------------|
PM. PM. PM. PM. PM. PM.

|----------------------|
|----------------------|
|----------------------|
|-4~---4-4-5^4-4-4-5-7-|
|----------------------|
|----------------------|
PM. PM.

CHORUS: it changes
A E
|-----------------------------------------------------------|
|-----------------------------------------------------------|
|-----------------------------------------------------------|
|-2--2------2--2-2-2------2--2------------------------------|----|
|-0--0--0-0-0--0-0-0--0-0-0--0-2--2------2--2-2-2------2--2-| |
|------------------------------0--0--0-0-0--0-0-0--0-0-0--0-| |
PM. ... ... ... |
G F# |X3
|-------------------------------------------------------------| |
|-------------------------------------------------------------| |
|-------------------------------------------------------------|--|
|-------------------------------------------------------------|
|-2--2-------2--2--5--5-----5--5----4--4-------4---4---4-4-4--|
|-0--0--0-0--0--0--3--3-3-3-3--3----2--2--2-2--2---2---2-2-2--|
... ... ...

END:
|--------------------------------------------------------------------|
|--------------------------------------------------------------------|
|--------------------------------------------------------------------|
|--2-2.------------------------------2-2.----------------------------|
|--0-0.----3-3.----5-5.----2-2.------0-0.----3-3.----5-5.----2-2.----|
|----------1-1.----3-3.----0-0.--------------1-1.----3-3.----0-0.----|

|-------------------------------------------------|
|-------------------------------------------------|
|-------------------------------------------------|
|222222222222222222222222222222--2-222-2----------|
|000000000000000000000000000000--0-000-0--5-7\----|
|-----------------------------------------3-5\----|
 PM............................ ...

Другие новости по теме: