Stolzes Herz (Live)

BAND: Lacrimosa
ALBUM: Lacrimosa Live (Original from "Stolzes Herz" 1996 EP)
MUSICIANS: Tilo Wolff, Anne Nurmi, Jay P, Sascha Gerbig, AC, J Kustner
TRANSCRIBED BY: Guillermo Gerling (lgerling@ironmaiden.com)

^ - hammer on, pull off
b - bend string up
r - release bend
/ - slide up
\ - slide down
~ - vibrato
T - tap
x - struck string
. - play the note and then mute it
< - raising volume
PM - palm mute
AH - Artificial Harmonic

INTRO:
-piano

VERSE1:
-piano

PRE-CHORUS:
C# - G# - Bbm - F#m

VERSE2:
-piano

PRE-CHORUS:
C# - G# - Bbm - F#

CHORUS:

e|------------------------------------------------------------------|
B|------------------------------------------------------------------|
G|------------------------------------------------------------------|
D|-----6-----6---6-----6-----6---6-----3-----3---3-----3-----3---3--|---|
A|-44444-44444-444-44444-44444-444-11111-11111-111-11111-11111-111--| |
E|------------------------------------------------------------------| |
PM.. .... .. .... .... .. .... .... .. .... .... .. |FIG1
|X2
|------------------------------------------------------------------| |
|------------------------------------------------------------------| |
|------------------------------------------------------------------|----|
|------------------------------------------------------------------|
|------4-----4---4-----4-----4---4-----6-----6---6-----6-----6---6-|
|--22222-22222-222-22222-22222-222-44444-44444-444-44444-44444-444-|
PM.. .... .. .... .... .. .... .... .. .... .... ..

INTERLUDE:
|-----|-----------------------------------------------------------------------|
|-----|-----------------------------------------------------------------------|
|-----|-----------------------------------------------------------------------|
|-----|--------------------------------------------------------------------6~-|
|-----|--------10b11b10b11~--------10b11b10b11~---------8/10/8-(2)-------6----|
|-15/-|-/8~---8------------8-7~---7------------7--6~---6------6-4~---4-7------|
PM . . .....
(Note in brackets is played only by one guitar)

|--------------------------------------------------------------------|
|--------------------------------------------------------------------|
|----------------12~------------------7~------------------8~---------|
|--------------14-------------------9-------------------9-------9----|
|------------14-------------------9-------------------9---------7----|
|-/12---12-15------------7---7-10------------7---7-10-----------0----|
PM....... PM...... PM......

THEN:
-only keyboards
-enter drums with guitar:
|-----------------------------------------------------------------------|
|-----------------------------------------------------------------------|
|------1-----1---1*-----1-----1---1*-----1-----1---1*-----1-----1---1*--|X5
|------1-----1---1*-----1-----1---1*-----1-----1---1*-----1-----1---1*--|
|-----------------------------------------------------------------------|
|--1-1---1-1---1----1-1---1-1---1----1-1---1-1---1----1-1---1-1---1-----|
PM. ... . ... ... . ... ... . ... ... .

*-These notes are played with an artificial harmonic or a wah-wah effect
(I'm not sure)

CHORUS:
-FIG1 X2

-Choruses and keyboards

-Chorus again with FIG1X4, but different rhythms

END:
|-----------|
|-----------|
|--6--------|
|--6--------|
|--4--------|
|-----------|

Другие новости по теме: