Der Kelch des Lebens

BAND: Lacrimosa
ALBUM: Inferno
MUSICIANS: Tilo Wolff, Anne Nurmi, Jay P, AC
TRANSCRIBED BY: Guillermo Gerling (lgerling@ironmaiden.com)

^ - hammer on, pull off
b - bend string up
r - release bend
/ - slide up
\ - slide down
~ - vibrato
T - tap
x - struck string
. - play the note and then mute it
< - raising volume
PM - palm mute
AH - Artificial Harmonic

EADGBe
Esus4 022200
Asus2 x02200

INTRO:
-Keyboards for a while
-then....
e|------------------------------------------------------------------------|
B|------------------------------------------------------------------------|
G|------------------------------------------------------------------------|
D|--4------4-4-----------------------------2-------2-2-----------------9--|-|
A|--2------2-2--------4---------4-4--------0-------0-0--------2--------7--| |
E|--------------------2---------2-2---------------------------0------0-0--| |
PM . |X2
|
|-------------------------------------------------------------------------| |
|-------------------------------------------------------------------------| |
|--------------------------------------------------------------------5-5--|-|
|---------------------5--------5-5----------------------------5------5-5--|
|--3--------3---------3--------3-3---------5--------5-5-------3------3-3--|
|--1--------1------------------------------3--------3-3-------------------|

VERSE1:
Bm F#m Am E F C Gm C

PRE-CHORUS:
G E Am F F-C Esus4-E Asus2-Am Dm-G

VERSE2:
Bm F#m Am E F C Gm C

PRE-CHORUS:
G E Am F F-C Esus4-E Asus2-Am Dm-G

CHORUS:
|--------------------------------------------|
|--------------------------------------------|
|--------------------------------------------|
|--4-4----4.--4-4----4.--4-4----4.--4-4----4-|
|--2-2-22-2.--2-2-22-2.--2-2-22-2.--2-2-22-2-|
|--------------------------------------------|
PM .. .. ..
|--------------------------------------------|
|--------------------------------------------|
|--------------------------------------------|
|--------------------------------------------|
|-4-4----4.--4-4----4.--4-4----4.--4-4----4--|
|-2-2-22-2.--2-2-22-2.--2-2-22-2.--2-2-22-2--|
.. .. .. ..
|--------------------------------------------|
|--------------------------------------------|
|--------------------------------------------|
|--2-2----2.--2-2----2.--2-2----2.--2-2----2-|
|--0-0-00-0.--0-0-00-0.--0-0-00-0.--0-0-00-0-|
|--------------------------------------------|
.. .. .. ..
|--------------------------------------------|
|--------------------------------------------|
|--------------------------------------------|
|-9-9----9.--9-9----9.--9-9----9.--9-9----9--|
|-7-7----7.--7-7----7.--7-7----7.--7-7----7--|
|-0-0-00-0.--0-0-00-0.--0-0-00-0.--0-0-00-0--|
.. .. .. ..
|------------------------------------------------|
|------------------------------------------------|
|------------------------------------------------|
|------------------------------------------------|
|--3-3-----3.--3-3-----3.--3-3-----3.--3-3-----3-|
|--1-1-1-1-1.--1-1-1-1-1.--1-1-1-1-1.--1-1-1-1-1-|
... ... ... ...
|--------------------------------------------|
|--------------------------------------------|
|--------------------------------------------|
|-5-5----5.--5-5----5.--5-5----5.--5-5----5--|
|-3-3-33-3.--3-3-33-3.--3-3-33-3.--3-3-33-3--|
|--------------------------------------------|
.. .. .. ..
|--------------------------------------------|
|--------------------------------------------|
|--------------------------------------------|
|--------------------------------------------|
|-5-5----5.--5-5----5.--5-5----5.--5-5----5--|
|-3-3-33-3.--3-3-33-3.--3-3-33-3.--3-3-33-3--|
.. .. .. ..
|--------------------------------------------|
|--------------------------------------------|
|--------------------------------------------|
|-5-5----5.--5-5----5.--5-5----5.--5-5----5--|
|-3-3-33-3.--3-3-33-3.--3-3-33-3.--3-3-33-3--|
|--------------------------------------------|
.. .. .. ..

Es ist der Traum...
|--------------------------------------------|
|--------------------------------------------|
|--------------------------------------------|
|--------------------------------------------|------|
|-5-5----5.--5-5----5.--5-5----5.--5-5----5--| |
|-3-3-33-3.--3-3-33-3.--3-3-33-3.--3-3-33-3--| |
.. .. .. .. |
|--------------------------------------------| |
|--------------------------------------------| |
|--------------------------------------------|------|
|--------------------------------------------| |
|-2-2----2.--2-2----2.--2-2----2.--2-2----2--| |
|-0-0-00-0.--0-0-00-0.--0-0-00-0.--0-0-00-0--| |Repeat these
.. .. .. .. |bars until
|--------------------------------------------| |the end
|--------------------------------------------| |
|--------------------------------------------|------|
|--2-2----2.--2-2----2.--2-2----2.--2-2----2-| |
|--0-0-00-0.--0-0-00-0.--0-0-00-0.--0-0-00-0-| |
|--------------------------------------------| |
.. .. .. .. |
|-----------------------------------------------| |
|-----------------------------------------------| |
|-----------------------------------------------|---|
|-----------------------------------------------|
|-3-3-----3.--3-3-----3.--3-3-----3.--3-3-----3-|
|-1-1-1-1-1.--1-1-1-1-1.--1-1-1-1-1.--1-1-1-1-1-|
 ... ... ... ...

Другие новости по теме: