Nightwish - Walking In The Air From Oceanborn

Tab by Abel...Of Darkness (Midgar31@hotmail.com)

Standard Tuning (EADGBE)

Chord: 1:10
|-------|
|-------|
|---7---|
|---7---|
|---5---|
|-------|


Solo: 2:47
|--------------------------------------------------------|
|--------------------------------------------------------|
|----19-19-17-17-----------19-19-17-17-14-10-12~-/14-12--|
|-19-------------19-----19-------------------------------|
|--------------------------------------------------------|
|--------------------------------------------------------|

|--------------------------------------------------------|
|--------------------------------------------------------|
|-12-14-/15-14-12~---------------------------------------|
|-------------------12-14-/15-14-12---10-12p10-----------|
|----------------------------------------------12~-------|
|--------------------------------------------------------|

|------------------------------------------------------------|
|----15----17-/18-17p15-13-15p13----------15----17-/18-17h18-|
|-14----14-----------------------14~---14----14--------------|
|------------------------------------------------------------|
|------------------------------------------------------------|
|------------------------------------------------------------|

|------------------------------------------------------------|
|-/20~-/22-20~--20h22-/23-22-20--15h17-/18-17-15-13-15p13----|
|---------------------------------------------------------14-|
|------------------------------------------------------------|
|------------------------------------------------------------|
|------------------------------------------------------------|

Riff A: 3:49
Two Times:
|------------------------------------------------------------|
|------------------------------------------------------------|
|-7----------5----/7--5--------------2-3----------5----------|
|-7----------5----/7--5----5---------2-3----------5----------|
|-5----------3-------------5---------0-1----------3----------|
|--------------------------3---------------------------------|

Riff B: 4:28
|------------------------------------------------------------|
|------------------------------------------------------------|
|-7-----7-----7-----7-----7-----7-----7-----7-----7-----7-7--|
|-7-----7-----7-----7-----7-----7-----7-----7-----7-----7-7--|
|-5-5-5-5-5-5-5-5-5-5-5-5-5-5-5-5-5-5-5-5-5-5-5-5-5-5-5-5-5--|
|------------------------------------------------------------|

|------------------------------------------------------------|
|------------------------------------------------------------|
|-7-----7---5----/7--5--------------------------3-------5----|
|-7-----7---5----/7--5-----5--------5-----5-----3-------5----|
|-5-5-5-5---3--------------5--------5-----5-----1-------3----|
|--------------------------3----3-3-3-3-3-3-3-3--------------|

|----------------------------------------------|
|----------------------------------------------|
|-7-----7-----7-----7-----7-----7-----7-----7--|
|-7-----7-----7-----7-----7-----7-----7-----7--|
|-5-5-5-5-5-5-5-5-5-5-5-5-5-5-5-5-5-5-5-5-5-5--|
|----------------------------------------------|

|------------------------------------------------------------|
|------------------------------------------------------------|
|-7-----7-----7-----7-----7-----7-----7-----7-----7-----7-7--|
|-7-----7-----7-----7-----7-----7-----7-----7-----7-----7-7--|
|-5-5-5-5-5-5-5-5-5-5-5-5-5-5-5-5-5-5-5-5-5-5-5-5-5-5-5-5-5--|
|------------------------------------------------------------|

|------------------------------------------------------------|
|------------------------------------------------------------|
|-7-----7---5----/7--5----------------------------3~-------5~|
|-7-----7---5----/7--5-----5--------5-----5------------------|
|-5-5-5-5---3--------------5--------5-----5-----1-------3----|
|--------------------------3----3-3-3-3-3-3-3-3--------------|

|------------------------------------------------------------|
|----------------------------------------3-------------------|
|-2~--------------------------------------2------------------|
|---------5~-----3~-----/5~-------2~-------0-----------------|
|-------------------------------------------0----------------|
|------------------------------------------------------------|

Any Mistake Please Send A mail: midgar31@hotmail.com

Другие новости по теме: