The Riddler Nightwish

from Oceanborn
tabbed by: Fredrik Olsson
e-mail: fredrik.olsson@mbox329.swipnet.se

tuned in E (regular tuning)

Intro:

e:-------------------------------------------------------------
B:-------------------------------------------------------------
G:----------7-----5-----------------------7-----5--------5--4--
D:-7----2---7--5--5----5---3--2--7----2---7--5--5----5---3--2--
A:-7----2---5--5--3----5---3--2--7----2---5--5--3----5---------
E:-5----0------3-------3---1--0--5----0------3-------3---------

verse:

Not that much guitars here.. ;)

Bridge:

pm. . . . . . . . . . . . . . . . . . . . . . . .
e:-----------------------------------------------------------------------------------------------
B:-----------------------------------------------------------------------------------------------
G:-----------------------------------------------------------------------------------------------
D:--------------------------------------------------5-----5---5-----5-----5---5------7-------7---
A:-0-0-8\--5-5---7--7----7---7-----7-----7---7--3-3-3-3-3-3-3-3-3-3-3-3-3-3-3-3--5-5-5-5-5-5-5-5-
E:---------3-3---5--5--5-5-5-5-5-5-5-5-5-5-5-5---------------------------------------------------
. . . . . . . . . . . . .
e:-------------------------------------------------
B:-------------------------------------------------
G:-------------------------------------------------
D:-------------------------------------------------
A:-----3-3-----5-5------7-----7---7-----7---7---7--
E:-1-1-1-1-3-3-3-3--5-5-5-5-5-5-5-5-5-5-5-5-5-5-5--

Lead part:

guit1 b
e:------------------------------------------------------------------------------------------------
B:-5--5/8-8--8-10-8--5\3-3---/10--10-8-6-5-----------3-5--/8--8-h10-10--8-7----10-12-12--12p10----
G:------------------------------------------2--2-4-5-----------------------7-------------------12-
D:------------------------------------------------------------------------------------------------
A:------------------------------------------------------------------------------------------------
E:------------------------------------------------------------------------------------------------
br
e:-----------------~-----------------
B:----------------A.H--12-12-10-A.H--
G:--------------7--9-------------9---
D:-----77-99-10----------------------
A:-12\-------------------------------
E:-----------------------------------

guit2
pm . . . . . . . . .
e:--------------------------------------------------------
B:--------------------------------------------------------
G:-5---------7---------5----7-----------------------------
D:-5----5----7----7----5----7----3---5--------------------
A:-3----5----5----7----3----5----3---5--2-2-2-2-2-2-2-2-2-
E:------3---------5--------------1---3--0-0-0-0-0-0-0-0-0-

Chorus:
pm . . . . . . . . . . . . . . . .
e:--------------------------------------------------------------------------------------------------
B:--------------------------------------------------------------------------------------------------
G:--------------------------------------------------------------------------------------------------
D:-----7-------3-------2----5---2---------------------------------------------------------------5-5-
A:-----7-------3-------2----5---2-------7-----7---7-----7---7-7-5-5-----3-----3---3-----3---3-3-3-3-
E:-12\-5----3--1----3--0----3---0---5-5-5-5-5-5-5-5-5-5-5-5-5-5-3-3-1-1-1-1-1-1-1-1-1-1-1-1-1-1-----

. . . . . . . . .
e:----------------------------------------
B:----------------------------------------
G:---------------------------------5------
D:-----7-----7---7-----7---7-7-7---5--5---
A:-5-5-5-5-5-5-5-5-5-5-5-5-5-5-5-0-3--5---
E:------------------------------------3---

Intro thing again
e:-------------------------------
B:-------------------------------
G:----------7-----5--------------
D:-7----2---7--5--5----5---3--2--
A:-7----2---5--5--3----5---3--2--
E:-5----0------3-------3---1--0--

verse:

Not that much guitars here either.. :)

Bridge:

pm. . . . . . . . . . . . . . . . . . . . . . . .
e:-----------------------------------------------------------------------------------------------
B:-----------------------------------------------------------------------------------------------
G:-----------------------------------------------------------------------------------------------
D:--------------------------------------------------5-----5---5-----5-----5---5------7-------7---
A:-0-0-8\--5-5---7--7----7---7-----7-----7---7--3-3-3-3-3-3-3-3-3-3-3-3-3-3-3-3--5-5-5-5-5-5-5-5-
E:---------3-3---5--5--5-5-5-5-5-5-5-5-5-5-5-5---------------------------------------------------
. . . . . . . . . . . . .
e:-------------------------------------------------
B:-------------------------------------------------
G:-------------------------------------------------
D:-------------------------------------------------
A:-----3-3-----5-5------7-----7---7-----7---7---7--
E:-1-1-1-1-3-3-3-3--5-5-5-5-5-5-5-5-5-5-5-5-5-5-5--

Lead part:

guit1 b
e:------------------------------------------------------------------------------------------------
B:-5--5/8-8--8-10-8--5\3-3---/10--10-8-6-5-----------3-5--/8--8-h10-10--8-7----10-12-12--12p10----
G:------------------------------------------2--2-4-5-----------------------7-------------------12-
D:------------------------------------------------------------------------------------------------
A:------------------------------------------------------------------------------------------------
E:------------------------------------------------------------------------------------------------
br
e:-----------------~-----------------
B:----------------A.H--12-12-10-A.H--
G:--------------7--9-------------9---
D:-----77-99-10----------------------
A:-12\-------------------------------
E:-----------------------------------

guit2
pm . . . . . . . . .
e:--------------------------------------------------------
B:--------------------------------------------------------
G:-5---------7---------5----7-----------------------------
D:-5----5----7----7----5----7----3---5--------------------
A:-3----5----5----7----3----5----3---5--2-2-2-2-2-2-2-2-2-
E:------3---------5--------------1---3--0-0-0-0-0-0-0-0-0-

Chorus:
pm . . . . . . . . . . . . . . . .
e:--------------------------------------------------------------------------------------------------
B:--------------------------------------------------------------------------------------------------
G:--------------------------------------------------------------------------------------------------
D:-----7-------3-------2----5---2---------------------------------------------------------------5-5-
A:-----7-------3-------2----5---2-------7-----7---7-----7---7-7-5-5-----3-----3---3-----3---3-3-3-3-
E:-12\-5----3--1----3--0----3---0---5-5-5-5-5-5-5-5-5-5-5-5-5-5-3-3-1-1-1-1-1-1-1-1-1-1-1-1-1-1-----

. . . . . . . . .
e:----------------------------------------
B:----------------------------------------
G:---------------------------------5------
D:-----7-----7---7-----7---7-7-7---5--5---
A:-5-5-5-5-5-5-5-5-5-5-5-5-5-5-5-0-3--5---
E:------------------------------------3---


Intro thing again
e:------------------------------------
B:------------------------------------
G:----------7-----5-------------------
D:-7----2---7--5--5----5---3--2---2---
A:-7----2---5--5--3----5---3--2---0---
E:-5----0------3-------3---1--0-------

Soft part:

guitars enter after a while.. (you'll hear it)

guit1
e:-8-/7-3--8-8---10--8-7-5--8-10-12-10-8-13-12-10--------------------13-------13-15----13-15-17-13-/20-----------
B:-------------------------------------------------13-15-17-13-15-17----15-17-------17------------------17-15-13-
G:---------------------------------------------------------------------------------------------------------------
D:---------------------------------------------------------------------------------------------------------------
A:---------------------------------------------------------------------------------------------------------------
E:---------------------------------------------------------------------------------------------------------------

guit2
e:--------------------------5-7-8-7-5-10-8-7--------------------10-------10-12----10-12-13-10-15-----------
B:-10-/8-5--8--10--8-7-\3---------------------10-12-13-10-12-13----12-13-------13-----------------13-12-10-
G:---------------------------------------------------------------------------------------------------------
D:---------------------------------------------------------------------------------------------------------
A:---------------------------------------------------------------------------------------------------------
E:---------------------------------------------------------------------------------------------------------

guit3
pm . . . . . . . .
e:--------------------------------------
B:--------------------------------------
G:-in the end---------------------------
D:----------------------------------2---
A:----------------------------------2---
E:--------------12\-0-0-0-0-0-0-0-0-0---

Chorus:
pm . . . . . . . . . . . . . . . .
e:-----------------------------------------------------------------------------------------------
B:-----------------------------------------------------------------------------------------------
G:-----------------------------------------------------------------------------------------------
D:--7-------3-------2----5---2---------------------------------------------------------------5-5-
A:--7-------3-------2----5---2-------7-----7---7-----7---7-7-5-5-----3-----3---3-----3---3-3-3-3-
E:--5----3--1----3--0----3---0---5-5-5-5-5-5-5-5-5-5-5-5-5-5-3-3-1-1-1-1-1-1-1-1-1-1-1-1-1-1-----

. . . . . . . . . .
e:----------------------------------------
B:----------------------------------------
G:---------------------------------5------
D:-----7-----7---7-----7-----7---7-5--5---
A:-5-5-5-5-5-5-5-5-5-5-5-5-5-5-5-5-3--5---
E:------------------------------------3---

pm . . . . . . . . . . . . . . . .
e:-----------------------------------------------------------------------------------------------
B:-----------------------------------------------------------------------------------------------
G:-----------------------------------------------------------------------------------------------
D:--7-------3-------2----5---2---------------------------------------------------------------5-5-
A:--7-------3-------2----5---2-------7-----7---7-----7---7-7-5-5-----3-----3---3-----3---3-3-3-3-
E:--5----3--1----3--0----3---0---5-5-5-5-5-5-5-5-5-5-5-5-5-5-3-3-1-1-1-1-1-1-1-1-1-1-1-1-1-1-----

. . . . . . . . . .
e:--------------------------------------------
B:--------------------------------------------
G:---------------------------------5----------
D:-----7-----7---7-----7-----7---7-5--5---7---
A:-5-5-5-5-5-5-5-5-5-5-5-5-5-5-5-5-3--5---7---
E:------------------------------------3---5---

Tablature explanation:
pm. = palm muted
\ = slide down
/ = slide up
h = hammer on
b = bend
br = bend and release
A.H = artificial harmonic
~ = hit your fixed whammybar..

Другие новости по теме: