WITHIN TEMPTATION - THE GATEKEEPER

This is just my interpretation of how to play the song...

From the album Enter

Version 2 - Februari 2001

Transcription done by: Sven Deckers

Look for more Within Temptation tabs at http://come.to/pearlsoflight

Listen the song for an accurate striking rhythm!

For questions, comments, corrections etc. please contact me at sven_deckers@hotmail.com

Check out the official Within Temptation Website at http://www.within-temptation.com

() - palm mute ^ - bend 1 step h - hammer on

[] - little feedback p - pull off s - slide

Within Temptation - The Gatekeeper

Tune to D (D,G,C,F,A,D)

----------------------------------------------------

Hey, I even tabbed out the piano notes for y'all...!

But don't mind the rhythm lay out too much :o)

----------------------------------------------------

Melody: Re Do La# Do La# La# La La La La# Do La La# La# La# La

Bass : Sol Fa Re# Re La# La

Melody: Re Do La# Do La# La# La La La La# Do La La# La# Re# Re

Bass : Sol Fa Re# Re Do Re

(?) (?)

Melody: Sol Sol La La# Sol Sol La La# Sol Sol La La# Sol Sol La# La

Bass : Sol Re# Fa Re

Play this 3 times, then

Melody: Sol Sol La La# Sol Sol La La# Sol Sol La La# La Do Re

Bass : Sol Re# Fa Re La#

Riff 1

|-----------------------------------------------------------

|----------------------------------------------------------- 1st & 3rd time

|-----------------------------------------------------------

|--7---(7)(7)(7)--7---(7)(7)(7)-----------------------------

|--5---(5)(5)(5)--5---(5)(5)(5)--2---(2)(2)(2)--2-----------

|--5---(5)(5)(5)--5---(5)(5)(5)--0---(0)(0)(0)--0-----------

|

|-----------------------------------------------------------

|----------------------------------------------------------- 2nd time

|-----------------------------------------------------------

|--7---(7)(7)(7)--7---(7)(7)(7)-----------------9-----------

|--5---(5)(5)(5)--5---(5)(5)(5)--2---(2)(2)(2)--7-----------

|--5---(5)(5)(5)--5---(5)(5)(5)--0---(0)(0)(0)--0-----------

|

|-----------------------------------------------------------

|----------------------------------------------------------- 4th time

|-----------------------------------------------------------

|--7---(7)(7)(7)--7---(7)(7)(7)---------------------10-10---

|--5---(5)(5)(5)--5---(5)(5)(5)--2---(2)(2)(2)--2---8--8----

|--5---(5)(5)(5)--5---(5)(5)(5)--0---(0)(0)(0)--0---8--8----


Riff '1.5'

Listen to hear how long exactly you have to keep palm-muting

|-----------

|-----------

|-----------

|-----------

|--(4)...---

|--(2)...---


Riff 2  

First 2 times:

|-----------------------------------------------------

|-----------------------------------------------------

|-----------------------------------------------------

|--4------------2-------------------------------------

|--------------------------4--------------------------

|----(2)(2)(2)---(2)(2)(2)---(2)(2)(2)(2)-(2)(2)(2)---

Last 2 times:

|-----------------------------------------------------

|-----------------------------------------------------

|-----------------------------------------------------

|--2-------------------------------------------------

|--------------5-----------2--------------------------

|----(0)(0)(0)---(0)(0)(0)---(0)(0)(0)(0)-(0)(0)(0)---


Riff 3

Not figured out yet.

Riff 4 ("Descendants of the night...")

Times: 1st, 2nd, 5th, 6th, 9th, 10th, 13th, 14th

|-----------------------------------------

|-----------------------------------------

|-----------------------------------------

|-----------------------------------------

|--(2)(2)(2)(5)(5)(5)(4)(4)(4)(2)(2)(2)---

|-----------------------------------------


Times: 3rd, 4th, 11th, 12th

|-----------------------------------------

|-----------------------------------------

|-----------------------------------------

|-----------------------------------------

|-----------------------------------------

|--(2)(2)(2)(5)(5)(5)(4)(4)(4)(2)(2)(2)---


Times: 7th, 8th, 15th, 16th

|-----------------------------------------

|-----------------------------------------

|-----------------------------------------

|-----------------------------------------

|--(4)(4)(4)(7)(7)(7)(6)(6)(6)(4)(4)(4)---

|-----------------------------------------


Repeat Riff 2

Repeat Riff 3

Repeat Riff 4

Riff 5

|-------|-------

|-------|-------

|-------|-------

|--(6)--|--------

|--(4)--|--(4)---

|-------|--(2)---

x24 x24


Riff 6

|--------------------------------------------------------------------------------

|--------------------------------------------------------------------------------

|--------------------------------------------------------------------------------

|--------------------------------7--7--7--7--6--6--(6)(6)(6)(6)(6)(6)(6)(6)------

|--9---7--9--7--4---(4)-(2)--4---5--5--5--5--4--4--(4)(4)(4)(4)(4)(4)(4)(4)------

|--7---5--7--5--2---(2)-(0)--2---5--5--5--5--4--4--(4)(4)(4)(4)(4)(4)(4)(4)------

|

|--------------------------------------------------------------------------------

|--------------------------------------------------------------------------------

|--------------------------------------------------------------------------------

|--------------------------------7--7--7--7--9--9--(9)(9)(9)(9)(9)(9)(9)(9)(9)---

|--9---7--9--7--4---4--2--4--4---5--5--5--5--7--7--(7)(7)(7)(7)(7)(7)(7)(7)(7)---

|--7---5--7--5--2---2--0--2--2---5--5--5--5--7--7--(7)(7)(7)(7)(7)(7)(7)(7)(7)---

Другие новости по теме: