To These Words I Beheld No Tongue (guitar tab)

Transcribed by Hiromi Nakamura

(Tune down 1 step to D)

* - Palm Mute ~ - Vibrato

H - Hammer On P - Pull Off

/ - Slide Up \ - Slide Down


|---------------------------------|

|---------------------------------|

|---------------------------------|

|-------2---------------2-5-4-2---|

|-----2-----5-2-------2-----------|

|-0-------3-------0---------------|



|----------------|----------------|

|----------------|----------------|

|----------------|----------------|

|---2------2-----|---0------0-----|

|--2------2------|--2------2------|

|-0------0-------|-0------0-------|



|----------------------------------|

|----------------------------------|

|----------------------------------|

|-----------------22222222---------|

|-22222222555555550000000055555444-|

|-0000000033333333--------33333222-|

********************************


|----------------------------------|---------------------------------|

|----------------------------------|---------------------------------|

|----------------------------------|---------------------------------|

|-----------------4---4-4-5---4----|----------------4---4-4-5---7----|

|-3---3-3-2---2-2------------------|-3---3-3-2---2-------------------|

|----------------------------------|---------------------------------|

Другие новости по теме: