A Hamlet for a Slothful Vassal (guitar tab)

Transcribed by Hiromi Nakamura

(Tune down 1 step to D) 

* - Palm Mute ~ - Vibrato

H - Hammer On P - Pull Off

/ - Slide Up \ - Slide Down


|-----------------|

|-----------------|

|-----------------|

|-----------------|

|-2-------5---7---|

|-0-------3---5---|



x1,2,3 x4

|-----------------|-----------------|-----------------|

|-----------------|-----------------|-----------------|

|-7----(7)---(7)--|-5----(5)-(5)----|-9----(9)---(9)--|

|-7-(7)---(7)-----|-5-(5)-(5)--(5)--|-9-(9)---(9)-----|

|-5---------------|-3---------------|-7---------------|

|-----------------|-----------------|-----------------|


Guitar 1 x1,2,3 x4

|-------------------------|-------------------------|-------------------------|

|-------------------------|-------------------------|-------------------------|

|-------------------------|-------------------------|-------------------------|

|-5-----7-7-7H9-9---------|-5-----4-----------------|-5-----7-4-4-------------|

|-------------------------|-----------5-5H7---------|-------------7-7---------|

|-------------------------|-------------------------|-------------------------|


Guitar 2

|-------------------------|-------------------------|

|-------------------------|-------------------------|

|-------------------------|-------------------------|

|-------------------------|-------------------------|

|-5-----7-7-7/9-9---------|-5-----7-4-4-2-2---------|

|-3-----5-5-5/7-7---------|-3-----5-2-2-0-0---------|


|-------------------------|-------------------------|

|-------------------------|-------------------------|

|-------------------55----|-------------------------|

|-----------------99--99--|-----------------7799775-|

|-----7-5---8-7-----------|-----7-5---8-7-----------|

|-0-----------------------|-0-----------------------|



|---------------------|

|---------------------|

|---------------------|

|------44433444555444-|

|-2-22222211222333222-|

|-0-000---------------|

 ***

Другие новости по теме: