Bacchante (guitar tab)

Transcribed by Alex Averson(visit his Tab-Archive!)

Riff A - guitar 1

Clean sound


E -------8--7--5---8--7--5--3-----8--7--5---10--8--7--5---

B --------------------------------------------------------

G --------------------------------------------------------

D --------------------------------------------------------

A --------------------------------------------------------

E --------------------------------------------------------


guitar 2 (enters 2nd time)

Clean sound


E -----0------------------------0----------3--------------

B -----1------------------------0----------3--------------

G -----2------------------------2----------5--------------

D -----2------------------------2----------5--------------

A --------------------------------------------------------

E --------------------------------------------------------


Riff B (distorted)


E -----------------------------------------

B -----------------------------------------

G -----------------------------------------

D ----4~---4--4------2--2------5--5--------

A ----2~---2--2------0--0------3--3--------

E -----------------------------------------


Synth interlude (adapted to guitar)


E ---7--5--7--5--7--7--8--7--8--7--5--7--5--7--7--8--7--8--8--8---

B ----------------------------------------------------------------

G ----------------------------------------------------------------

D ----------------------------------------------------------------

A ----------------------------------------------------------------

E ----------------------------------------------------------------


Guitar interlude (clean sound)


E --------------------------------------------------------

B --------------------------------------------------------

G --------------------------------------------------------

D ---9-9-9-9-9-9-----7-7-7-7-7-7-----10-10-10-10-10-10----

A --------------------------------------------------------

E --------------------------------------------------------


Structure of the song:

Riff A-both guitars during verse

Riff B (distorted)-during chorus

Repeat Riff A

Repeat Riff B

Synth interlude-4 times, with slight variations

Repeat Riff B

Guitar interlude-4 times «onto the paper scribe I the words…»

Riff B till the song ends

Другие новости по теме: